Arctic Monkeys - Bad Woman Bass tab download free or play online

Bass tab for Bad Woman by Arctic Monkeys free download and read or play online: file .txt, 1.98 kb has 309 views and 0 downloads.

Download bass tab "Bad Woman" (Arctic Monkeys)

Arctic Monkeys Band name
Bad Woman Song name
Bass tabs Tab type
1.98 kb File size
.TXT File type
309 views
0 downloads
 
Are you robot?

Bad Woman bass tab read and play online

                    Bad Woman, from Arctic Monkeys' Teddy Picker single

Intro
G|-------------|
D|-------------|
A|-------2-0---|
E|-0030------3-| 4x

G|---------------------------------------|
D|---------------------------------------|
A|---------------------------------2-0---|
E|-7777777-55555555-33333333-0-0-------3-|

Verse 1
G|-------------|
D|-------------|
A|-------2-0---|
E|-0030------3-| 6x

G|---------------------------------------|
D|---------------------------------------|
A|---------------------------------2-0---|
E|-7777777-55555555-33333333-0-0-------3-|

Bridge
G|-------------|
D|-------------|
A|-------2-0---|
E|-0030------3-| 4x

Verse 2
G|-------------|
D|-------------|
A|-------2-0---|
E|-0030------3-| 6x

G|---------------------------------------|
D|---------------------------------------|
A|---------------------------------2-0---|
E|-7777777-55555555-33333333-0-0-------3-|

Chorus
G|---------------------------------------|
D|---------------------------------------|
A|---------------------------------------|
E|-7777777-55555555-3333333333333333-----|

G|---------------------------------------|
D|---------------------------------------|
A|---------------------------------2-0---|
E|-7777777-55555555-33333333-0-0-------3-|

Interlude (after drums)
G|-------------|
D|-------------|
A|-------------|
E|-7-5-3-0-----| 2x

Verse 3
G|-------------|
D|-------------|
A|-------2-0---|
E|-0030------3-| 6x

G|---------------------------------------|
D|---------------------------------------|
A|---------------------------------2-0---|
E|-7777777-55555555-33333333-0-0-------3-|

Chorus/Ending
G|---------------------------------------|
D|---------------------------------------|
A|---------------------------------------| 
E|-7777777-55555555-3333333333333333-----| 3x

G|---------------------------------------|
D|---------------------------------------|
A|---------------------------------------|
E|-7777777-55555555-3-3------------------|                    

Comments for bass tab — Bad Woman (Arctic Monkeys)

Other Bad Woman by Arctic Monkeys tabs:

Last viewed Arctic Monkeys tabs: